Mood Swings - Intro

(/) Slide Up  (\) Slide Down  (h) Hammer On  (p) Pull Off  (b) Bend (r) Release (v) Vibrato

Stave 1:

E|--------------11----------------------14----------11----------
B|------12--------------12--14------12------12----------14--12--
G|--13------13------13----------13--------------13--------------
D|--------------------------------------------------------------
A|--------------------------------------------------------------
E|--------------------------------------------------------------

Stave 2:

E|--------------11------------------11--------------14--11----------
B|------12--------------12--14----------14------12----------14--12--
G|--13------13------13----------13----------13----------------------
D|------------------------------------------------------------------
A|------------------------------------------------------------------
E|------------------------------------------------------------------

http://www.guitartabcreator.com
Guitar Tab Creator is intended to store guitar tab created through the tool. It currently does not support in-line text editing. Any text you place in here will be lost. If you need to comment on your tab, please use the "Tab Notes" section located below.