Lines - // Verse \\

(/) Slide Up  (\) Slide Down  (h) Hammer On  (p) Pull Off  (b) Bend (r) Release (v) Vibrato


E|------------12---------12---------12----------------
B|-----12---------12---------12---------12-----12-----
G|--9------9----------9----------9----------9---------
D|----------------------------------------------------
A|----------------------------------------------------
E|----------------------------------------------------



E|--------------10--------------
B|------10----------10------10--
G|--11------11----------11------
D|------------------------------
A|------------------------------
E|------------------------------



E|--------------10----------10----------10--------------
B|------10----------10----------10----------10------10--
G|--12------12----------12----------12------------------
D|----------------------------------------------12------
A|------------------------------------------------------
E|------------------------------------------------------



E|------------10-------------
B|-----10---------10-----10--
G|--7------7----------7------
D|---------------------------
A|---------------------------
E|---------------------------



E|-----------7--------7--------7-----------
B|-----8--------8--------8--------8-----8--
G|--9-----9--------9--------9--------9-----
D|-----------------------------------------
A|-----------------------------------------
E|-----------------------------------------
http://www.guitartabcreator.com
Guitar Tab Creator is intended to store guitar tab created through the tool. It currently does not support in-line text editing. Any text you place in here will be lost. If you need to comment on your tab, please use the "Tab Notes" section located below.