Lines in the sand VERS

(/) Slide Up  (\) Slide Down  (h) Hammer On  (p) Pull Off  (b) Bend (r) Release (v) Vibrato


E|-------0-------0-------0-------0-------0-------0-------0-------0-------0-------0---
B|-7-------7-------7-------7-------4-------4-------2-------2-------2-------2---------
G|---6-------6-------6-------6-------4-------4-------4-------4-------4-------4-------
E|-----0-------0-------0-------0-------0-------0-------0-------0-------0-------0-----
A|-4-------------------------------2---------------0---------------------------------
E|-----------------------------------------------------------------------------------



E|-------0-------0-------0-------0-------0-------0-
B|-4-------4-------2-------2-------2-------2-------
G|---4-------4-------4-------4-------4-------4-----
E|-----0-------0-------0-------0-------0-------0---
A|-2---------------0-------------------------------
E|-------------------------------------------------
http://www.guitartabcreator.com
Guitar Tab Creator is intended to store guitar tab created through the tool. It currently does not support in-line text editing. Any text you place in here will be lost. If you need to comment on your tab, please use the "Tab Notes" section located below.