lines in the sand omkvæd

(/) Slide Up  (\) Slide Down  (h) Hammer On  (p) Pull Off  (b) Bend (r) Release (v) Vibrato


E|-------0-------0-------0-------0-------0-------0-------0-------0-------0-------0-------0-------0-
B|-4-------4-------5-------5-------9-------9-------7-------7-------5-------5-------5-------5-------
G|---4-------4-------6-------6-------9-------9-------9-------9-------6-------6-------6-------6-----
E|-----0-------0-------0-------0-------0-------0-------0-------0-------0-------0-------0-------0---
A|-2---------------4---------------7---------------9-------9-------4-------------------------------
E|-------------------------------------------------------------------------------------------------



E|-------0-------0-------0-------0-
B|-2-------2-------2-------2-------
G|---4-------4-------4-------4-----
E|-----0-------0-------0-------0---
A|-0-------------------------------
E|---------------------------------
http://www.guitartabcreator.com
Guitar Tab Creator is intended to store guitar tab created through the tool. It currently does not support in-line text editing. Any text you place in here will be lost. If you need to comment on your tab, please use the "Tab Notes" section located below.