Lines - // outro 1 og outro 2 \\ - Thorborg / lead

(/) Slide Up  (\) Slide Down  (h) Hammer On  (p) Pull Off  (b) Bend (r) Release (v) Vibrato


E|----------0----------0------------------0----------0-----------------0---------0---------
B|--15---------15---------13------10---------10---------13------8---------8---------8------
G|------12---------12---------12------12---------12---------12-----10--------10--------10--
D|-----------------------------------------------------------------------------------------
A|-----------------------------------------------------------------------------------------
E|-----------------------------------------------------------------------------------------



E|----------0----------0------------------0----------0----------0----------0----------0------
B|--10---------10---------13------10---------10---------10---------10---------10---------10--
G|------12---------12---------12------12---------12---------12---------12---------12---------
D|-------------------------------------------------------------------------------------------
A|-------------------------------------------------------------------------------------------
E|-------------------------------------------------------------------------------------------
http://www.guitartabcreator.com
Guitar Tab Creator is intended to store guitar tab created through the tool. It currently does not support in-line text editing. Any text you place in here will be lost. If you need to comment on your tab, please use the "Tab Notes" section located below.