Ghost Behind The Doort

(/) Slide Up  (\) Slide Down  (h) Hammer On  (p) Pull Off  (b) Bend (r) Release (v) Vibrato


E|------------0--------------------0-----------------0--------------------0------
B|-------9---------9-h10p9----9---------9-------9---------9-h10p9----9---------9-
G|----11---11---11---------11---11---11------11---11---11---------11---11---11---
D|-11--------------11---------------------11--------------11---------------------
A|-------------------------------------------------------------------------------
E|-------------------------------------------------------------------------------



E|--------0--------0--------0----------------0------
B|------9--------9--------9---9h10p9----9---------9-
G|---11-------11-------11------------11---11---11---
D|--------------------------------------------------
A|-------------------0------------------------------
E|-0--------0---------------------------------------
http://www.guitartabcreator.com
Guitar Tab Creator is intended to store guitar tab created through the tool. It currently does not support in-line text editing. Any text you place in here will be lost. If you need to comment on your tab, please use the "Tab Notes" section located below.