Ghost behind the door omkvæd 1

(/) Slide Up  (\) Slide Down  (h) Hammer On  (p) Pull Off  (b) Bend (r) Release (v) Vibrato


E|-----------------0---------------------0---------------------0---------------------0------
B|--9---------------------10--------------------15--------------------12--------------------
G|----------9---------------------9---------------------9---------------------9-------------
D|--11--11-----11-----11--11--11-----11-----11--11--11-----11-----11--11--11-----11-----11--
A|------------------------------------------------------------------------------------------
E|------------------------------------------------------------------------------------------


E|--------------0-----------------0-----------------0-----------------0-----
B|--7-----------------9-----------------5----------------5h7----------------
G|--------9-----------------9-----------------6-----------------6-----------
D|--9--9-----9-----9--9--9-----9-----9--7--7-----7-----7--7--7-----7-----7--
A|--------------------------------------------------------------------------
E|--------------------------------------------------------------------------
http://www.guitartabcreator.com
Guitar Tab Creator is intended to store guitar tab created through the tool. It currently does not support in-line text editing. Any text you place in here will be lost. If you need to comment on your tab, please use the "Tab Notes" section located below.