December - pre chorus (so push me down, I'll raise up again with only the words gone missing..)

(/) Slide Up  (\) Slide Down  (h) Hammer On  (p) Pull Off  (b) Bend (r) Release (v) Vibrato

Stave 1:

E|-8------8------8------8------8------10------10------10------10------8------
B|---10-----10-----10-----10-----10------10------10------10------10-----10---
G|------9------9------9------9------9-------7-------7-------7-------7------7-
D|---------------------------------------------------------------------------
A|---------------------------------------------------------------------------
E|---------------------------------------------------------------------------

Stave 2:

E|-5-----5-----5-----5-----5---------5-----5---------5-----5-----
B|---8-----8-----8-----8-----8---6-----6-----6---5-----5-----5---
G|-----7-----7-----7-----7-----7---7-----7-----7---7-----7-----7-
D|---------------------------------------------------------------
A|---------------------------------------------------------------
E|---------------------------------------------------------------

http://www.guitartabcreator.com
Guitar Tab Creator is intended to store guitar tab created through the tool. It currently does not support in-line text editing. Any text you place in here will be lost. If you need to comment on your tab, please use the "Tab Notes" section located below.