Burning Vers

(/) Slide Up  (\) Slide Down  (h) Hammer On  (p) Pull Off  (b) Bend (r) Release (v) Vibrato


D|-------0---------------0---------------0-------0-------0---------------0---------
B|-2---------2-----0---------0-----0-------0-------0---------0-----0---------0-----
F#---3---------3-----3---------3-----0-------0-------5---------0-----5---------0---
D|-----4---4-----4-----4---4-----4-----2-------2-------0---0-----0-----0---0-----0-
B|-0---------------0---------------------------------------------------------------
D|---------------------------------2-------0-------5---------------5---------------



D|-------0---------------0---------
B|-0---------0-----0---------0-----
F#---7---------7-----3---------3---
D|-----0---0-----0-----0---0-----0-
B|---------------------------------
D|-5---------------5---------------
http://www.guitartabcreator.com
Guitar Tab Creator is intended to store guitar tab created through the tool. It currently does not support in-line text editing. Any text you place in here will be lost. If you need to comment on your tab, please use the "Tab Notes" section located below.