Burning el-guitar chorus

(/) Slide Up  (\) Slide Down  (h) Hammer On  (p) Pull Off  (b) Bend (r) Release (v) Vibrato

E|----------------------------------------------------------------------------------------------------
B|----------------------------------------------------------------------------------------------------
G|--10------10------10------10--13------13------13------13--7------7------7------7--10------10--7--5--
D|------10------10------10----------10------10------10---------10-----10-----10---------10------------
A|----------------------------------------------------------------------------------------------------
E|----------------------------------------------------------------------------------------------------



E|----------------------------------------------------------------------------------------------------------------
B|--16------16------16------16--19------19------19------19--13------13------13------13--16------16--13--11--------
G|------15------15------15----------15------15------15----------15------15------15----------15--------------------
D|----------------------------------------------------------------------------------------------------------------
A|----------------------------------------------------------------------------------------------------------------
E|----------------------------------------------------------------------------------------------------------------
http://www.guitartabcreator.com
Guitar Tab Creator is intended to store guitar tab created through the tool. It currently does not support in-line text editing. Any text you place in here will be lost. If you need to comment on your tab, please use the "Tab Notes" section located below.