burning c s-tykke

(/) Slide Up  (\) Slide Down  (h) Hammer On  (p) Pull Off  (b) Bend (r) Release (v) Vibrato


D|-------0---------------0---------------0---------------0---------
B|-7---------7-----7---------7-----5---------5-----5---------5-----
F#---8---------8-----8---------8-----7---------7-----7---------7---
D|-----9---9-----9-----9---9-----9-----7---7-----7-----7---7-----7-
B|-0---------------0---------------0---------------0---------------
D|-----------------------------------------------------------------



D|-------0---------------0---------------0---------------0---------
B|-5---------5-----5---------5-----2---------2-----2---------2-----
F#---7---------7-----7---------7-----3---------3-----3---------3---
D|-----7---7-----------7---7-----7-----4---4-----4-----4---4-----4-
B|-0-------------7-0---------------0---------------0---------------
D|-----------------------------------------------------------------
http://www.guitartabcreator.com
Guitar Tab Creator is intended to store guitar tab created through the tool. It currently does not support in-line text editing. Any text you place in here will be lost. If you need to comment on your tab, please use the "Tab Notes" section located below.