August - pre-chorus 2 (wake up in the morning) + outro

(/) Slide Up  (\) Slide Down  (h) Hammer On  (p) Pull Off  (b) Bend (r) Release (v) Vibrato


E|-------------------------------6--0--------------6--0--------------
B|--------------6p0--------------------6--0--------------6--0--------
G|-----6----------------5-----6--------------6--6--------------6-----
D|--8-----8--6-------6-----6-----------------------------------------
A|-------------------------------------------------------------------
E|-------------------------------------------------------------------



E|-------------------------------6--0--------------0-----6--8--
B|--------------6p0--------------------6--0--------------------
G|-----6----------------5-----6--------------6--6-----6--6--8--
D|--8-----8--6-------6-----6-----------------------------------
A|-------------------------------------------------------------
E|-------------------------------------------------------------



E|------9---------8--------0--------6--0--------------6--0-----------
B|----------------------------------------6--0--------------6--0-----
G|--11-----11--8-----8--------------------------6-----------------6--
D|----------------------6-----6--8-----------------8-----------------
A|-------------------------------------------------------------------
E|-------------------------------------------------------------------



E|-----------0--------------------
B|--------0-----0-----------0--0--
G|-----6-----------6-----5-----5--
D|--8-----------------6--------6--
A|--------------------------------
E|--------------------------------



E|-----------------------------------------------------------------------------------------
B|-----------------------------------------------------------------------------------------
G|--8--8--8--8--8--8--8--8--8--8--8--8--8--8--8--8--8--8--8--8--8--8--8--8--8--8--8--8--8--
D|-----------------------------------------------------------------------------------------
A|-----------------------------------------------------------------------------------------
E|-----------------------------------------------------------------------------------------



E|-------------------------------------------------------------------------------------
B|-------------------------------------------------------------------------------------
G|--10--10--10--10--10--10--10--10--10--10--10--6--6--6--6--6--6--6--6--6--6--6--6--6--
D|-------------------------------------------------------------------------------------
A|-------------------------------------------------------------------------------------
E|-------------------------------------------------------------------------------------
http://www.guitartabcreator.com
Guitar Tab Creator is intended to store guitar tab created through the tool. It currently does not support in-line text editing. Any text you place in here will be lost. If you need to comment on your tab, please use the "Tab Notes" section located below.