August - Pre chorus 1 (wake up in the morning) + alternative chorus (Living in a moment that has already past)

(/) Slide Up  (\) Slide Down  (h) Hammer On  (p) Pull Off  (b) Bend (r) Release (v) Vibrato

E|-------------------------------6--0--------------6--0-----------
B|--------------6p0--------------------6--0--------------6--0-----
G|-----6----------------5-----6--------------6--6--------------6--
D|--8-----8--6-------6-----6--------------------------------------
A|----------------------------------------------------------------
E|----------------------------------------------------------------



E|-------------------------------6--0--------------0-----6--8-----
B|--------------6p0--------------------6--0-----------------------
G|-----6----------------5-----6--------------6--6-----6--6--8-----
D|--8-----8--6-------6-----6--------------------------------------
A|----------------------------------------------------------------
E|----------------------------------------------------------------



E|-----------------------------------------------------------6-------------------------
B|------14----------14----------14----------14---------9--------9--------11--------11--
G|--11------11--11------11--10------10--10------10--6-----6--------6--8------8--8------
D|-------------------------------------------------------------------------------------
A|-------------------------------------------------------------------------------------
E|-------------------------------------------------------------------------------------



E|-----------------------------------------------------------6-------------------------
B|------14----------14----------14----------14---------9--------9--------11--------11--
G|--11------11--11------11--10------10--10------10--6-----6--------6--8------8--8------
D|-------------------------------------------------------------------------------------
A|-------------------------------------------------------------------------------------
E|-------------------------------------------------------------------------------------
http://www.guitartabcreator.com
Guitar Tab Creator is intended to store guitar tab created through the tool. It currently does not support in-line text editing. Any text you place in here will be lost. If you need to comment on your tab, please use the "Tab Notes" section located below.