Airport VERS 1 and 2 - CABO on 5th fret (when we play live, it is 3th fret because of the high pitch vocals)

(/) Slide Up  (\) Slide Down  (h) Hammer On  (p) Pull Off  (b) Bend (r) Release (v) Vibrato

E|-----------2-----------0-----------2-----------0--
B|-----0-----------0-----------0-----------0--------
G|--4-----4-----4-----4-----4-----4-----4-----4-----
D|--------------------------------------------------
A|--------------------------------------------------
E|--------------------------------------------------



E|-----------5-----------0-----------7-----------0-----------7-----------0--
B|-----0-----------0-----------0-----------0-----------0-----------0--------
G|--7-----7-----7-----7-----9-----9-----9-----9-----9-----9-----9-----9-----
D|--------------------------------------------------------------------------
A|--------------------------------------------------------------------------
E|--------------------------------------------------------------------------



E|-------------10-------------0-----------5-----------0-----------7-----------0-----------7--------------
B|------0--------------0------------0-----------0-----------0-----------0-----------0--------------------
G|--12-----12------12-----12-----7-----7-----7-----7-----9-----9-----9-----9-----9-----9-----9-----------
D|-------------------------------------------------------------------------------------------------------
A|-------------------------------------------------------------------------------------------------------
E|-------------------------------------------------------------------------------------------------------
http://www.guitartabcreator.com
Guitar Tab Creator is intended to store guitar tab created through the tool. It currently does not support in-line text editing. Any text you place in here will be lost. If you need to comment on your tab, please use the "Tab Notes" section located below.