Europe - The Final Countdown pt. 2

(/) Slide Up  (\) Slide Down  (h) Hammer On  (p) Pull Off  (b) Bend (r) Release (v) Vibrato


E|--9--7--9-----|--10--9--10--9--7--|--10--9--10-----|-----------------------------|-------
B|-----------7--|-------------------|-------------7--|--12--10--12--10--9--12--10--|-------
G|--------------|-------------------|----------------|-----------------------------|-------
D|--------------|-------------------|----------------|-----------------------------|-------
A|--------------|-------------------|----------------|-----------------------------|-------
E|--------------|-------------------|----------------|-----------------------------|-------



E|-------------|---------9--|----------------10--9--9h10b9b7h9--|--
B|--9--10--12--|--10h12-----|--12--10--9--7---------------------|--
G|-------------|------------|-----------------------------------|--
D|-------------|------------|-----------------------------------|--
A|-------------|------------|-----------------------------------|--
E|-------------|------------|-----------------------------------|--



E|------------------
B|------------------
G|------------------
D|-----7--4--2------
A|--4--5--2--2---4--
E|--2--------0/1/2--
http://www.guitartabcreator.com
Guitar Tab Creator is intended to store guitar tab created through the tool. It currently does not support in-line text editing. Any text you place in here will be lost. If you need to comment on your tab, please use the "Tab Notes" section located below.