Moja pierwsza piosenka-zakończenie

(/) Slide Up  (\) Slide Down  (h) Hammer On  (p) Pull Off  (b) Bend (r) Release (v) Vibrato
E|---------------------------------7---6-7-----------8-8/7-7/5-3-3-3-3-3\5-----
B|---------------------------3h5\6---6-6-7-----------------------3-3-3-----3\5-
G|-------------------2h4p2-5-----------6-7-------------------------------------
D|---------2h3p2-2\5-----------------------2-2-2-4-4---------------------------
A|-3\5-5/3---------------------------------2-2-2-4-4-------------3-3-0---------
E|-----------------------------------------------------------------------------



E|--------------------0--0--0--0--0--
B|--------------------0--0--0--1--0--
G|--3\5---------------0--0--0--0--0--
D|-----------------------------------
A|-------3\5--5/3--3-----------------
E|--------------------0--0--0--0--0--
http://www.guitartabcreator.com
Guitar Tab Creator is intended to store guitar tab created through the tool. It currently does not support in-line text editing. Any text you place in here will be lost. If you need to comment on your tab, please use the "Tab Notes" section located below.