wallace and gromit

Wallace and Gromit 
e-3---1--0--3---1--0--3----5--3--5--7--5--3--1|
B-----------------------3---------------------|
G---------------------------------------------|
D---------------------------------------------|
A---------------------------------------------|
E---------------------------------------------|

e-0--3---1--0--3---3--1--0--3----5--3--5--7--5|
B-----------------------------3---------------|
G---------------------------------------------|
D---------------------------------------------|
A---------------------------------------------|
E---------------------------------------------|

e-7--8---8--7--5---8--7--5--7--5--3--7--5--3--|
B---------------------------------------------|
G---------------------------------------------|
D---------------------------------------------|
A---------------------------------------------|
E---------------------------------------------|

e-5--3--1--3--3--5--5-------------------------|
B---------------------------------------------|
G---------------------------------------------|
D---------------------------------------------|
A---------------------------------------------|
E---------------------------------------------|

Guitar Tab Creator is intended to store guitar tab created through the tool. It currently does not support in-line text editing. Any text you place in here will be lost. If you need to comment on your tab, please use the "Tab Notes" section located below.