Freshmeatmonday?

(/) Slide Up  (\) Slide Down  (h) Hammer On  (p) Pull Off  (b) Bend (r) Release (v) Vibrato


E|--------------|--------------|-----------------------|--
B|--------------|--------------|--------------7--------|--
G|-----4--------|-----4--------|-----------4-----4-----|--
D|--------7-----|--------7-----|--------7-----------7--|--
A|-----------4--|-----------4--|-----4-----------------|--
E|--4-----------|--4-----------|--4--------------------|--



E|--------------|--------------|-----------------------|---
B|--------------|--------------|--------------7--------|---
G|-----4--------|-----4--------|-----------4-----4-----|---
D|--------7-----|--------7-----|--------7-----------7--|--r
A|-----------5--|-----------5--|-----5-----------------|---
E|--0-----------|--0-----------|--0--------------------|---
http://www.guitartabcreator.com
Guitar Tab Creator is intended to store guitar tab created through the tool. It currently does not support in-line text editing. Any text you place in here will be lost. If you need to comment on your tab, please use the "Tab Notes" section located below.