"You Really Got Me" Style Riff

(/) Slide Up  (\) Slide Down  (h) Hammer On  (p) Pull Off  (b) Bend (r) Release (v) Vibrato

Stave 1:

E|-----------------
B|-----------------
G|-----------------
D|--5--7--7--5--7--
A|--5--7--7--5--7--
E|--3--5--5--3--5--

Stave 2:

E|-----------------
B|-----------------
G|-----------------
D|--7--9--9--7--9--
A|--7--9--9--7--9--
E|--5--7--7--5--7--

Stave 3:

E|-----------------
B|-----------------
G|--7--9--9--7--9--
D|--7--9--9--7--9--
A|--5--7--7--5--7--
E|-----------------

Stave 4:

E|-----------------------------------
B|-----------------------------------
G|-----2--2-----2-----------------6--
D|-----2--2-----2-----------------6--
A|-----0--0-----0-----------------4--
E|--3--------3-----------------------

http://www.guitartabcreator.com
Guitar Tab Creator is intended to store guitar tab created through the tool. It currently does not support in-line text editing. Any text you place in here will be lost. If you need to comment on your tab, please use the "Tab Notes" section located below.