Warm Up Exercises

(/) Slide Up  (\) Slide Down  (h) Hammer On  (p) Pull Off  (b) Bend (r) Release (v) Vibrato
E|--------------------------------------------------------------1--2--3--4--
B|--------------------------------------------------1--2--3--4--------------
G|--------------------------------------1--2--3--4--------------------------
D|--------------------------1--2--3--4--------------------------------------
A|--------------1--2--3--4--------------------------------------------------
E|--1--2--3--4--------------------------------------------------------------



E|--------------------------------------------------------------4--3--2--1--
B|--------------------------------------------------4--3--2--1--------------
G|--------------------------------------4--3--2--1--------------------------
D|--------------------------4--3--2--1--------------------------------------
A|--------------4--3--2--1--------------------------------------------------
E|--4--3--2--1--------------------------------------------------------------



E|--------------------------------------------------------------1--4--2--3--
B|--------------------------------------------------1--4--2--3--------------
G|--------------------------------------1--4--2--3--------------------------
D|--------------------------1--4--2--3--------------------------------------
A|--------------1--4--2--3--------------------------------------------------
E|--1--4--2--3--------------------------------------------------------------



E|--4--1--3--2--------------------------------------------------------------
B|--------------4--1--3--2--------------------------------------------------
G|--------------------------4--1--3--2--------------------------------------
D|--------------------------------------4--1--3--2--------------------------
A|--------------------------------------------------4--1--3--2--------------
E|--------------------------------------------------------------4--1--3--2--



E|--------------------------------------------------
B|--------------------------------------------------
G|-----------4--1--------------------5--2-----------
D|--------3--------2--------------4--------3--------
A|-----2--------------3--------3--------------4-----
E|--1--------------------4--2--------------------5--



E|--------------------------------------------------------------1--2--4--3--
B|--------------------------------------------------1--2--4--3--------------
G|--------------------------------------1--2--4--3--------------------------
D|--------------------------1--2--4--3--------------------------------------
A|--------------1--2--4--3--------------------------------------------------
E|--1--2--4--3--------------------------------------------------------------



E|--------------------------------------------------------1--5--
B|--------------------------------------------1--5--------------
G|--------------------------------1--5--------------------------
D|--------------------1--5--------------------------------------
A|--------1--5--------------------------------------------------
E|--1--5--------1--5--------1--5--------1--5--------1--5--------



E|--------------------------------------------------------------------1--5--
B|--------------------------------------------------1--5--------1--5--------
G|--------------------------------1--5--------1--5--------1--5--------------
D|--------------1--5--------1--5--------1--5--------------------------------
A|--------1--5--------1--5--------------------------------------------------
E|--1--5--------------------------------------------------------------------



E|--1--2--3--4/5--4--3--2/3--4--5--6/7--6--5--4/5--6--7--8--
B|----------------------------------------------------------
G|----------------------------------------------------------
D|----------------------------------------------------------
A|----------------------------------------------------------
E|----------------------------------------------------------



E|------------------------------------------------------
B|------------------------------------------------------
G|------------------------------------------------------
D|------------------------------------------------------
A|------------------------------------------------------
E|--1h2p1h2p1h2p1----1h3p1h3p1h3p1----1h4p1h4p1h4p1-----



E|-------------------------
B|-------------------------
G|-------------------------
D|-------------------------
A|-------------------------
E|--1h2p1h3p1h4p1h3p1h2p1--
http://www.guitartabcreator.com
Guitar Tab Creator is intended to store guitar tab created through the tool. It currently does not support in-line text editing. Any text you place in here will be lost. If you need to comment on your tab, please use the "Tab Notes" section located below.