High String Work 2

(/) Slide Up  (\) Slide Down  (h) Hammer On  (p) Pull Off  (b) Bend (r) Release (v) Vibrato

Stave 1:

E|-19-17-15----------------15-17-15-------------------14-15-14-------------------12-14-12----------
B|----------19-17-15-17-19----------19-17-15-14-15-17----------17-15-14-12-14-15----------15-14-12-
G|-------------------------------------------------------------------------------------------------
D|-------------------------------------------------------------------------------------------------
A|-------------------------------------------------------------------------------------------------
E|-------------------------------------------------------------------------------------------------

Stave 2:

E|----------10-12-10------------------9-10-9----------------7-9-7--------
B|-10-12-14----------14-12-10-9-10-12--------12-10-9-7-9-10-------10-9-7-
G|-----------------------------------------------------------------------
D|-----------------------------------------------------------------------
A|-----------------------------------------------------------------------
E|-----------------------------------------------------------------------

Stave 3:

E|-------5-7-5-------------3-5-3-----------
B|-5-7-9-------9-7-5-3-5-7-------7-5-3-2-3-
G|-----------------------------------------
D|-----------------------------------------
A|-----------------------------------------
E|-----------------------------------------

http://www.guitartabcreator.com
Guitar Tab Creator is intended to store guitar tab created through the tool. It currently does not support in-line text editing. Any text you place in here will be lost. If you need to comment on your tab, please use the "Tab Notes" section located below.