High String Work

(/) Slide Up  (\) Slide Down  (h) Hammer On  (p) Pull Off  (b) Bend (r) Release (v) Vibrato

Stave 1:

E|-17-15-13----------------13-15-13-------------------12-13-12-------------------10-12-10----------
B|----------17-15-13-15-17----------17-15-13-12-13-15----------15-13-12-10-12-13----------13-12-10-
G|-------------------------------------------------------------------------------------------------
D|-------------------------------------------------------------------------------------------------
A|-------------------------------------------------------------------------------------------------
E|-------------------------------------------------------------------------------------------------

Stave 2:

E|---------9-10-9----------------7-9-7--------------5-7-5-------------3-5-3-----------
B|-9-10-12--------12-10-9-7-9-10-------10-9-7-5-7-9-------9-7-5-3-5-7-------7-5-3-2-3-
G|------------------------------------------------------------------------------------
D|------------------------------------------------------------------------------------
A|------------------------------------------------------------------------------------
E|------------------------------------------------------------------------------------

http://www.guitartabcreator.com
Guitar Tab Creator is intended to store guitar tab created through the tool. It currently does not support in-line text editing. Any text you place in here will be lost. If you need to comment on your tab, please use the "Tab Notes" section located below.