G Major Scale

(/) Slide Up  (\) Slide Down  (h) Hammer On  (p) Pull Off  (b) Bend (r) Release (v) Vibrato
E|--3-------------------------------------------2--3--
B|--3-------------------------------------3--5--------
G|--4----------------------------2--4--5--------------
D|--5-------------------2--4--5-----------------------
A|--5----------2--3--5--------------------------------
E|--3----3--5-----------------------------------------



E|--5--3--2----------------------------------------------------------------
B|-----------5--3----------------------------------------------------------
G|-----------------5--4--2-------------------------------------------------
D|--------------------------5--4--2----------------------------5-----------
A|-----------------------------------5--3--2-------------2--5-----5--2-----
E|--------------------------------------------5--3----3-----------------3--



E|-----------------------------------------------------------------------------------------
B|-----------------------------------------------------------------------------------------
G|-----------------------------------------------------------------------2--------2--4-----
D|-----------------------------------2--------2--4-----2--4--5--2--4--5-----4--5--------5--
A|--------2--3-----2--3--5--2--3--5-----3--5--------5--------------------------------------
E|--3--5--------5--------------------------------------------------------------------------



E|--------------------------------------------------------------------------------------------------------
B|--------------------------------------------------------------------------------------------------------
G|--4--2--------2-----------------------------------------------------------------------------------------
D|--------5--4-----5--4--2--5--4--2-----4--2--------2-----------------------------------------------------
A|-----------------------------------5--------5--3-----5--3--2--5--3--2-----3--2--------2-----------------
E|-----------------------------------------------------------------------5--------5--3-----5--3--2--3-----
http://www.guitartabcreator.com
Guitar Tab Creator is intended to store guitar tab created through the tool. It currently does not support in-line text editing. Any text you place in here will be lost. If you need to comment on your tab, please use the "Tab Notes" section located below.