Melody1

(/) Slide Up  (\) Slide Down  (h) Hammer On  (p) Pull Off  (b) Bend (r) Release (v) Vibrato

E|------------------------------------
B|-------------------------10/12\10v--
G|-----7----------7-----7-------------
D|-----------7/9-----9----------------
A|--9-----9---------------------------
E|------------------------------------



E|----------------------------------------
B|-----10-----10--8--7--------------------
G|--9------9------------7--------11-------
D|-------------------------7--9------12v--
A|----------------------------------------
E|----------------------------------------
http://www.guitartabcreator.com
Guitar Tab Creator is intended to store guitar tab created through the tool. It currently does not support in-line text editing. Any text you place in here will be lost. If you need to comment on your tab, please use the "Tab Notes" section located below.