Praise To The Man

"Praise To The Man" Ukulele Tab
By Mason Mac

(/) Slide Up (\) Slide Down (p) Pull Off


FINGERPICKING:

A|--3-------3---3/5--7-9-8-7----0----3--(3)3---3-2--(2)--2----
E|--0-----------------------(0)-0------------------------0----
C|--0--0-0--2-0-2/4--2-4-3-2----2----3-5-3-2-4-2-1p0-1-3-1----
g|------------------------------------------------------------

A|--3-------3---3/5--7-9-8-7----0----3--(3)3---3-2--(2)--3----
E|--0-----------------------(0)-0------------------------0----
C|--0--0-0--2-0-2/4--2-4-3-2----2----3-5-3-2-4-2-1p0-1-2-0----
g|------------------------------------------------------------

A|--3/5---5-4\2-----3/5---5-4/2-----3/5-5-5-4\2/11-10-9\7-10-8--7\6\5\4----
E|--1/3---3-3\1p0---1/3---3-3\1p0---1/3---3-3\1/8--10-9---11-11-7\6\5\4----
C|------0---------3-----0---------3----------------------------------------
g|-------------------------------------------------------------------------

A|--3--3-3--3---3/5--7-9-8-7----0----3--(3)3---3-2--(2)--3----
E|--0-------0---------------(0)-0------------------------0----
C|--0-------2-0-2/4--2-4-3-2----2----3-5-3-2-4-2-1p0-1-2-0----
g|------------------------------------------------------------

CHORDS:

A|--3--3-3--5-3-5/7--9--11-10-9---5----6-8--6-5-7-5-4\3/4-6-4----
E|--3--3-3--5-3-5/7--10-12-11-10--5----6-8--6-5-7-5-4\3/4-6-4----
C|--4--4-4--6-4-6/8--9--11-10-9---6----7-9--7-6-8-6-5\4/5-7-5----
g|--5--5-5--7-5-7/9--11-13-12-11--7----8-10-8-7-9-7-6\5/6-8-6----

A|--3--3-3--5-3-5/7--9--11-10-9---5----6-8--6-5-7-5-4\3/4-5-3----
E|--3--3-3--5-3-5/7--10-12-11-10--5----6-8--6-5-7-5-4\3/4-5-3----
C|--4--4-4--6-4-6/8--9--11-10-9---6----7-9--7-6-8-6-5\4/5-6-4----
g|--5--5-5--7-5-7/9--11-13-12-11--7----8-10-8-7-9-7-6\5/6-7-5----

A|--4/5--5-5-4\2\1p0--4/5--5-5-4\2\1p0--4/5--5-5-4\2/11-10-9\7--10-8--7\6\5\4----
E|--4/5--5-5-4\2\1p0--4/5--5-5-4\2\1p0--4/5--5-5-4\2/11-10-9\7--11-9--7\6\5\4----
C|--5/6--6-6-5\3\2p0--5/6--6-6-5\3\2p0--5/6--6-6-5\3/12-11-10\8-10-10-7\6\5\4----
g|--6/7--7-7-6\4\3p0--6/7--7-7-6\4\3p0--6/7--7-7-6\4/13-12-11\9-12-10-7\6\5\4----

A|--3--3-3--5-3-5/7--9--11-10-9---5----6-8--6-5-7-5-4\3/4-5-3----
E|--3--3-3--5-3-5/7--10-12-11-10--5----6-8--6-5-7-5-4\3/4-5-3----
C|--4--4-4--6-4-6/8--9--11-10-9---6----7-9--7-6-8-6-5\4/5-6-4----
g|--5--5-5--7-5-7/9--11-13-12-11--7----8-10-8-7-9-7-6\5/6-7-5----

*Although certain stanzas appear to be the same, be mindful and observant!
Because there are small differences in stanza 1 compared to 3 and 4.
Thanks and enjoy!*
Guitar Tab Creator is intended to store guitar tab created through the tool. It currently does not support in-line text editing. Any text you place in here will be lost. If you need to comment on your tab, please use the "Tab Notes" section located below.