Gotta Give It Up

"Gotta Give It Up" Ukulele Tab
Song Written and Performed By Chad Martini
Ukulele Performed By Mason Mac

(/) Slide Up (\) Slide Down (h) Hammer On (p) Pull Off (b) Bend (r) Release (v) Vibrato (*)Harmonic

INTRO

A|--3---------------
E|-------1---11*----
C|--0----0----------
g|------------------ x4

CHORUS

A|--3-3-x--3-3-x-x------3-3-x--3-3-x-x----
E|--3-3-x--3-3-x-x------5-5-x--5-5-x-x----
C|--4-4-x--4-4-4-x------5-5-x--5-5-5-x----
g|--5-5-x--5-5-5-x------5-5-x--5-5-5-x---- x2

A|-/7-7-x--7-7-x-x------8--8-x--8--8--x-x----
E|-/8-8-x--8-8-x-x------8--8-x--8--8--x-x----
C|-/7-7-x--7-7-7-x------9--9-x--9--9--9-x----
g|-/9-9-x--9-9-9-x-----10-10-x-10-10-10-x----

A|--3-3-x--3-3-x-x------3-3-x--3-3-x-x----
E|--3-3-x--3-3-x-x------5-5-x--5-5-x-x----
C|--4-4-x--4-4-4-x------5-5-x--5-5-5-x----
g|--5-5-x--5-5-5-x------5-5-x--5-5-5-x----

VERSE/BRIDGE

A|--7-7-x--7-7-x-x------8--8-x--8--8--x-x----
E|--8-8-x--8-8-x-x------8--8-x--8--8--x-x----
C|--7-7-x--7-7-7-x------9--9-x--9--9--9-x----
g|--9-9-x--9-9-9-x-----10-10-x-10-10-10-x---- x2

A|--3-3-x--3-3-x-x------3-3-x--3-3-x-x----
E|--3-3-x--3-3-x-x------5-5-x--5-5-x-x----
C|--4-4-x--4-4-4-x------5-5-x--5-5-5-x----
g|--5-5-x--5-5-5-x------5-5-x--5-5-5-x---- x2

REPEAT CHORUS

Solo x4 Stanzas

REPEAT CHORUS x1

{BEAT}

OUTRO

A|--3-3-x--3-3-x-x------3-3-x--3-3-x-x----
E|--3-3-x--3-3-x-x------5-5-x--5-5-x-x----
C|--4-4-x--4-4-4-x------5-5-x--5-5-5-x----
g|--5-5-x--5-5-5-x------5-5-x--5-5-5-x---- x2
Guitar Tab Creator is intended to store guitar tab created through the tool. It currently does not support in-line text editing. Any text you place in here will be lost. If you need to comment on your tab, please use the "Tab Notes" section located below.