BB

(/) Slide Up  (\) Slide Down  (h) Hammer On  (p) Pull Off  (b) Bend (r) Release (v) Vibrato
E|-------------------------------------|-------------5----|-----------8------------------------|--0--
B|------8--------------10----8----7----|--6---------------|--8---------------------------------|--0--
G|------5--------------7-----5----5----|--4---------------|--5---------------------------------|--7--
D|-------------------------------------|------------------|------------------2-----3-----4-----|--6--
A|------7--------------8-----7----6----|--5---------------|--7------------------3-----5-----6--|-----
E|-------------------------------------|------------------|------------------------------------|--0--



E|-----------8-------10--8--7----|--8-----------8--5-----------5--|--------------------------3--
B|-----5--8-------6--------------|-----------7--------------4-----|--8--------8--5--------6----5-
G|--5-------------5--------------|--------8--------------5--------|--------5-----4-----4-------4-
D|----------------7--------------|-----7--------------4-----------|----------------------------2-
A|-------------------------------|--------------------------------|-----7--------5--5----------3-
E|-------------------------------|--------------------------------|-----------------------------



E|--------------------5----8--------5--|-------------------------|---------8-------------|----
B|-------5------------6----7-----------|--8----------------------|-----10------------10--|----
G|-------3------------7----8-----------|--9--------4------3------|-----9----------8------|----
D|-------2-----------------------------|-----------2------2------|-----------------------|----
A|-------------------------------------|-------------------------|-----8----------9------|----
E|--2----2----2--1---------------------|-----------3------2------|--1--------------------|----



E|------------------------0-----|-----------5---------------5--7---------------7----|--8---------7-----
B|--8---------------------0-----|------7-----------------5------------------6-------|-------7----------
G|--9---------------------12----|------5--------------5------------------7----------|-------9----------
D|------------------------11----|------------------4------------------6-------------|-------7----------
A|--10------11------12----------|------5--------------------------------------------|------------------
E|------------------------------|---------------------------------------------------|------------------



E|------|----------7------8------|--10------------10---------7--8--10--11--12----------11--12--11-----
B|------|--10------8------6------|-------------8------8--10------------------------10-----------------
G|------|--9-------7------6------|---------10--------------------------------------12-----------------
D|------|------------------------|------9------------------------------------------10-----------------
A|------|--8-------7------6------|--------------------------------------------------------------------
E|------|------------------------|--------------------------------------------------------------------



E|--|--12----------8--------|--10------7-----------|-------0----0----------------|--
B|--|--------------8--------|--7-------------------|-----------------------------|--
G|--|--------------7--------|--7------------8------|--7--------------------------|--
D|--|--------------7--------|--6------------7------|--6--------------------------|--
A|--|-----------------------|----------------------|-----------------------------|--
E|--|-----------------------|---------------8------|--7---------0----------------|--



E|--8--------10--8--7----|--8--------------------|--7---------7----------------------|-----
B|--5--------------------|--8------------10------|------------5----------------------|-----
G|--5--------------------|--8--------------------|------------4-------------4--------|-----
D|--7--------------------|--7--------------------|-------6------------------6--------|-----
A|-----------------------|--8--------------------|---------------------7-------------|-----
E|-----------------------|-----------------------|-----------------------------------|-----



E|----------------------------|---------------------------|--------------------|-----------------
B|---------6---------6--------|---------5-----------------|---------3-----3----|-----------------
G|---------5---------4--------|---------5-----------------|---------4-----4----|-----------------
D|-------------------0--------|--5---------7----5----4----|--3---------7-------|----5/----10-----
A|--5-------------------------|---------------------------|--------------------|-----------------
E|--------------3-------------|---------------------------|--------------------|-----------------



E|----------------|--12-------------8--10------12--------------10------|----------------------------
B|----------------|--12--------------------------------10--------------|--10----------------10------
G|----------9-----|--9---------------------------------9---------------|---------------9------------
D|--10--10--10----|--10--------------------------------10--------------|----------------------------
A|--0-------------|----------0-------------------------9---------------|----------8-----------------
E|----------------|----------------------------------------------------|----------------------------



E|--7--------|--8-------------------------|----------------------|------------------------------|--
B|--9--------|--8-------------------------|---------6------------|-------------6----------------|--
G|--8--------|--7-------------------------|---------5------------|-------------5----------------|--
D|-----------|----------------------------|----------------------|------------------------------|--
A|--8--------|--7----------8----7----6----|--5-----------6----5--|------4-------------6----4----|--
E|-----------|----------------------------|----------------------|------------------------------|--



E|----------------------------------|--8-------------
B|--5-------------------5----8------|--5-------------
G|--4--------------5----------------|--5----------2--
D|------------5---------------------|--5----------2--
A|--3----7--------------------------|----------------
E|----------------------------------|-------------3--
http://www.guitartabcreator.com
Guitar Tab Creator is intended to store guitar tab created through the tool. It currently does not support in-line text editing. Any text you place in here will be lost. If you need to comment on your tab, please use the "Tab Notes" section located below.