Live forever

(/) Slide Up  (\) Slide Down  (h) Hammer On  (p) Pull Off  (b) Bend (r) Release (v) Vibrato


E|-------------------------------------------------------------------------------------
B|-------------------------------------------------------------------------------------
G|---------12--14b16r12------12h14--14b16r12------12h14------12-----12-----------------
D|--12h14----------------14-------------------14---------14--12h14--12-------------9---
A|----------------------------------------------------------------------12h14--12--10--
E|-------------------------------------------------------------------------------------



E|----------------------------------------------------------------------
B|----------------------------------------------------------------------
G|----------------12h14--14b16r12------12h14-----------------12-----12--
D|--10/12--12h14-------------------14---------14--12h14--12--12h14--12--
A|----------------------------------------------------------------------
E|----------------------------------------------------------------------



E|--10/12--12--12-----------------------------------------------------------------------------
B|-----------------15p12--15p12------12-------------------------------------------------------
G|-------------------------------14------14p12--14p12------12--14p12--14b15--14--12h14p12------
D|-----------------------------------------------------14---------------------------------14--
A|--------------------------------------------------------------------------------------------
E|--------------------------------------------------------------------------------------------



E|--------------------------------------------------------12--12-----
B|---------------------------------------------10/12--15-------------
G|----------------12--14b15--14b15r12------12------------------------
D|---------12h14-----------------------14----------------------------
A|--12h14------------------------------------------------------------
E|-------------------------------------------------------------------



E|--12----------------------------------------------------------------------------------
B|------15p12--15p12------12------------------------------------------------------------
G|--------------------14------14p12--14p12------12--14p12--14b15--14--12h14--12---------
D|------------------------------------------14-----------------------------------14-----
A|--------------------------------------------------------------------------------------
E|--------------------------------------------------------------------------------------



E|----------------------------------------------------------------------------------
B|----------------------------------------------------------------------------------
G|----------------12----------------12----------------12--14b15--14b15--12------12--
D|---------12h14-------------12h14-------------12h14------------------------14------
A|--12h14-------------12h14-------------12h14---------------------------------------
E|----------------------------------------------------------------------------------
http://www.guitartabcreator.com
Guitar Tab Creator is intended to store guitar tab created through the tool. It currently does not support in-line text editing. Any text you place in here will be lost. If you need to comment on your tab, please use the "Tab Notes" section located below.