Dont look back in anger

(/) Slide Up  (\) Slide Down  (h) Hammer On  (p) Pull Off  (b) Bend (r) Release (v) Vibrato


E|---------------------------------------------------------------------------------
B|---------------------------------------------------------------------------------
G|--5--7b8r7b8r7b8r7--5----------5--5--7b9--5--5-----5--7--5--7b8r7b8r7b8r7--5-----
D|-----------------------5--5h7-------------------7-----------------------------5--
A|---------------------------------------------------------------------------------
E|---------------------------------------------------------------------------------



E|-----------------------------------------------------------------------------8--8h10--8--
B|--------------------------------------------------------------------8--8h10--------------
G|--5----5------------------------------------5--5--7b8r5-----5--7/9-----------------------
D|--5h7--5-------5-----------------------5h7---------------7-------------------------------
A|----------5h7-----7\5--3-------3--5/7----------------------------------------------------
E|--------------------------3h5------------------------------------------------------------



E|--------8--------8--------8--------8--------8--8h10--8--------8--------8--------8--------8--
B|--8h10-----8h10-----8h10-----8h10-----8h10--------------8h10-----8h10-----8h10-----8h10-----
G|--------------------------------------------------------------------------------------------
D|--------------------------------------------------------------------------------------------
A|--------------------------------------------------------------------------------------------
E|--------------------------------------------------------------------------------------------



E|--12-----12-----12-----12-----12-----12-----12------------------------------17--------------------
B|--15b17--15b17--15b17--15b17--15b17--15b17--15b17--15b17r13------13--15b17------15--13--15--13----
G|-------------------------------------------------------------14-----------------------------------
D|--------------------------------------------------------------------------------------------------
A|--------------------------------------------------------------------------------------------------
E|--------------------------------------------------------------------------------------------------



E|-------12----12----12----12----
B|----13-15b17-15b17-15b17-15b17-
G|-14----------------------------
D|-------------------------------
A|-------------------------------
E|-------------------------------
http://www.guitartabcreator.com
Guitar Tab Creator is intended to store guitar tab created through the tool. It currently does not support in-line text editing. Any text you place in here will be lost. If you need to comment on your tab, please use the "Tab Notes" section located below.