Nights in White Satin

(/) Slide Up  (\) Slide Down  (h) Hammer On  (p) Pull Off  (b) Bend (r) Release (v) Vibrato


E|--------------------------------------------------------------------
B|--------------------------------------------------------------------
G|--------------------------------------------------------------------
D|-----------------------------------2--0-----0-----------------------
A|--2--0-----0--0--2--2--2--0-----0--------3-----2--0--0--0-----0-----
E|--------3--------------------0-----------------------------0-----3--



E|-------------------------------------------------------------------------------
B|-------------------------------------------------------------------------------
G|---------------------------------------10--8------8----------------------------
D|--9--7--5--7--7--7--9--9--9--7------7---------10-----9--7--7--7------7---------
A|--------------------------------10-------------------------------10-----10--6--
E|-------------------------------------------------------------------------------



E|------------------14--12--12--
B|----------10--10--------------
G|--10--10----------------------
D|------------------------------
A|------------------------------
E|------------------------------



E|---------7--8--7-------------7---------------------------------7--8--10--8--7--8--10--8--7------
B|-----10-----------10--8--10-----10--8------8--10--9--------10-------------------------------10--
G|--9------------------------------------10------------9--9---------------------------------------
D|------------------------------------------------------------------------------------------------
A|------------------------------------------------------------------------------------------------
E|------------------------------------------------------------------------------------------------



E|--7--8--7-------------------------------------------------------------
B|----------------------------------------------------------------------
G|-----------9--9--7----------------9--9--7----------------7--9--10--9--
D|--------------------10--7--7--10-----------10--7--7--10---------------
A|----------------------------------------------------------------------
E|----------------------------------------------------------------------
http://www.guitartabcreator.com
Guitar Tab Creator is intended to store guitar tab created through the tool. It currently does not support in-line text editing. Any text you place in here will be lost. If you need to comment on your tab, please use the "Tab Notes" section located below.