Thunder Road / Sugarfoot Rag

(/) Slide Up  (\) Slide Down  (h) Hammer On  (p) Pull Off  (b) Bend (r) Release (v) Vibrato


E|-------------------------------------------------------------------------------|--
B|-------------------------------------------------------------------------------|--
G|-------------------------------------------------------------------------------|--
D|-------------------------------2--0-----------0--------------------------0--2--|--
A|-----0--4--2--0-------0--0--4--------4--2--4-----2--------------0--2--4--------|--
E|--0--------------0----------------------------------4--0--2--4-----------------|--



E|-------------------------------------------------------------------------------------------------
B|-------------------------------------------------------------------------------------------------
G|-------------------------------------------------------------------------------------------------
D|-------2-----------------------2--0-----------0--------------------------------------0--2--4-----
A|--3/4-----4--2--0-----0--0--4--------4--2--4-----2--------------0--0--0--4--2--0--0--------------
E|-------------------0--------------------------------4--0--2--4-----------------------------------



E|-----------------------------------------------------------------------------------
B|-----------------------------------------------------------------------------------
G|--2-----2-----2--------------------------------------------------------------------
D|-----0-----4-----0--2--0-----0--2-----2--0-----------------------------------0--2--
A|--------------------------4--------4--------4--2--0--------------0--0--2--4--------
E|-----------------------------------------------------4--0--2--4--------------------



E|--------------------------------------------------------------------------------------------
B|--------------------------------------------------------------------------------------------
G|-----------------------------2--------------------------------------------------------------
D|--2--3--2--3--2--0--0--2--3-----3--2--0--0--3--2--0-----0--2-----2--0-----------------------
A|-----------------------------------------------------3--------3--------3--2--0--------------
E|--------------------------------------------------------------------------------4--0--2--4--



E|--------------------x-----x-----x-----x--------------|--|--
B|--------------------2-----2-----2-----2--------------|--|--
G|--------------------2-----2-----2-----2--------------|--|--
D|--------------------2-----2-----2-----2--------------|--|--
A|--0--0--0--3--2--0--x-----x--0--x-----x--0-----------|--|--
E|--------------------x--0--x-----x--0--x-----0--2--4--|--|--
http://www.guitartabcreator.com
Guitar Tab Creator is intended to store guitar tab created through the tool. It currently does not support in-line text editing. Any text you place in here will be lost. If you need to comment on your tab, please use the "Tab Notes" section located below.