Forever Young Solo's

(/) Slide Up  (\) Slide Down  (h) Hammer On  (p) Pull Off  (b) Bend (r) Release (v) Vibrato
E|-------------------------------------------------------------|--
B|-------------------------------------------------------------|--
G|-------2--4/6--6-------2--4/6--6-------2--4/6--6--6\4--2--2--|--
D|--2h4-------------2h4-------------2h4------------------------|--
A|-------------------------------------------------------------|--
E|-------------------------------------------------------------|--



E|-----------------------------------------------------------------------------|--
B|-----------------------------------------------------------------------------|--
G|-------2--4/6--6-------2--4\2--2-------2--4/6--6--6\4--2--2-------2--4/6--6--|--
D|--2h4-------------2h4-------------2h4------------------------2h4-------------|--
A|-----------------------------------------------------------------------------|--
E|-----------------------------------------------------------------------------|--



E|----------------------------------------------------------------------------------------------------
B|------------------------------------------------------------5--7/10--10--10--10--10--7--------------
G|-------2--4--4/6--6--6--7--6--4---------------------2--4/6------------------------------9--9--6-----
D|--2h4----------------------------7--2/4--7--2--2/4--------------------------------------------------
A|----------------------------------------------------------------------------------------------------
E|----------------------------------------------------------------------------------------------------



E|-----------------------0--2p0--0----------------------------------------------------17--14--12--
B|-----------------0--2-------------2--0---------------------0h2--0-----------0h2--0--------------
G|--6-------------------------------------2--4/6--4--2---------------2----------------------------
D|-----9--9--7--9---------------------------------------2/4-------------4--2----------------------
A|------------------------------------------------------------------------------------------------
E|------------------------------------------------------------------------------------------------



E|--14--14--12------12----------------------------------------------5--7--5-----------------------
B|--------------15------14--14h15--14--12--12----------12------5h7--------------------------------
G|---------------------------------------------14--13------13---------------------2--4/6--6--6\4--
D|---------------------------------------------------------------------------2h4------------------
A|------------------------------------------------------------------------------------------------
E|------------------------------------------------------------------------------------------------



E|-----|--|--
B|-----|--|--
G|--4--|--|--
D|-----|--|--
A|-----|--|--
E|-----|--|--
http://www.guitartabcreator.com
Guitar Tab Creator is intended to store guitar tab created through the tool. It currently does not support in-line text editing. Any text you place in here will be lost. If you need to comment on your tab, please use the "Tab Notes" section located below.