Corações apressados

(/) Slide Up  (\) Slide Down  (h) Hammer On  (p) Pull Off  (b) Bend (r) Release (v) Vibrato
E|------------------------
B|--------------4---------
G|----3----5----3----5----
D|----5----3----3----6----
A|----6----5----4----3----
E|------------------------



E|-----------------------------
B|----4----3-------------------
G|----5----3----2----5----4----
D|----5----5----3----6----5----
A|----3----6----3----6----5----
E|--------------1----4----3----



E|--------
B|--------
G|--5--7--
D|--6--8--
A|--6--8--
E|--4--6--
http://www.guitartabcreator.com
Guitar Tab Creator is intended to store guitar tab created through the tool. It currently does not support in-line text editing. Any text you place in here will be lost. If you need to comment on your tab, please use the "Tab Notes" section located below.