Batman, o porteiro

(/) Slide Up  (\) Slide Down  (h) Hammer On  (p) Pull Off  (b) Bend (r) Release (v) Vibrato
E|--------------------|--------------------|--------------------|--------------------------|--
B|--------7--6--------|--------7--6--------|--------7--6--------|--------------------------|--
G|--5--5--------9--5--|--5--5--------9--5--|--5--5--------9--5--|--9--9--9--9--9--9--9--9--|--
D|--------------------|--------------------|--------------------|--------------------------|--
A|--------------------|--------------------|--------------------|--------------------------|--
E|--------------------|--------------------|--------------------|--------------------------|--



E|--------------------|--------------------|--------------------|--------------------|--
B|--------7--6--------|--------7--6--------|--------7--6--------|--------------------|--
G|--5--5--------9--5--|--5--5--------9--5--|--5--5--------9--5--|--5--5--5--5--5--5--|--
D|--------------------|--------------------|--------------------|--------------------|--
A|--------------------|--------------------|--------------------|--------------------|--
E|--------------------|--------------------|--------------------|--------------------|--



E|--------------------------------------
B|--4--3--4--8--4--3--1--3--8--6--8--6--
G|--5--4--5--8--5--4--2--4--7--5--7--5--
D|--------------------------7--5--7--5--
A|--------------------------------------
E|--------------------------------------
http://www.guitartabcreator.com
Guitar Tab Creator is intended to store guitar tab created through the tool. It currently does not support in-line text editing. Any text you place in here will be lost. If you need to comment on your tab, please use the "Tab Notes" section located below.