Agora eu sei

(/) Slide Up  (\) Slide Down  (h) Hammer On  (p) Pull Off  (b) Bend (r) Release (v) Vibrato

E|----------------------------------------------------------------
B|------------------------------------------------------3---------
G|----1----2----2----1----2---------1----2----2----1----2----4----
D|----2----4----2----2----4----2----2----4----2----2----2----5----
A|----2----5----4----2----5----4----2----5----4----2----3----5----
E|----0---------2----0---------2--------------2----0---------3----



E|------------------------
B|----0----0----0----0----
G|----1----2----1----2----
D|----2----0----2----0----
A|------------------------
E|------------------------



E|----------------------------------
B|---------2----2----2---------2----
G|---------2----2----2----2----2----
D|----2----4----2----2----4----2----
A|----4----5----0----4----5----0----
E|----2--------------2--------------



E|-----------------------------------------------------------------------------------------------------------------
B|-----------------------2--------------------------2--------------------------------------------------------------
G|-----------1--------2-----------------1--------2-----------------------------------------------------------------
D|--------2--------4-----------------2--------4--------------------------------------------------------------------
A|-----2--------5-----------------2--------5--------------2--------------------------------------------------------
E|--0-----------------------6--0-----------------------0-----------------------------------------------------------
http://www.guitartabcreator.com
Guitar Tab Creator is intended to store guitar tab created through the tool. It currently does not support in-line text editing. Any text you place in here will be lost. If you need to comment on your tab, please use the "Tab Notes" section located below.