Tuyo *Solo*

(/) Slide Up  (\) Slide Down  (h) Hammer On  (p) Pull Off  (b) Bend (r) Release (v) Vibrato


E|--11h13-------------11--11--
B|---------11--11h13------13--
G|----------------------------
D|----------------------------
A|----------------------------
E|----------------------------



E|--------------------------8--9---11--9---8--6--8-------------8--
B|--------9v------8--6--4v--9--11--13--11--9--8--9------6/8/9-----
G|--8h10----------------------------------------------------------
D|----------------------------------------------------------------
A|----------------------------------------------------------------
E|----------------------------------------------------------------



E|----------------16----------------------------------------
B|--13h14p13------14--14p13---------------------------------
G|-----------------------------15b15--13--------13--15--13--
D|----------------------------------------15----15--17--15--
A|----------------------------------------------------------
E|----------------------------------------------------------



E|-----------------------------------16--18b16----------------------------------------------------
B|-----------------16/18v----16--18-------------18--16------------13------13--14--16--13--14--16--
G|--15b15--13---------------------------------------------13--15------15--------------------------
D|-------------15---------------------------------------------------------------------------------
A|------------------------------------------------------------------------------------------------
E|------------------------------------------------------------------------------------------------



E|--13----------13--16v--
B|------14--16-----------
G|-----------------------
D|-----------------------
A|-----------------------
E|-----------------------
http://www.guitartabcreator.com
Guitar Tab Creator is intended to store guitar tab created through the tool. It currently does not support in-line text editing. Any text you place in here will be lost. If you need to comment on your tab, please use the "Tab Notes" section located below.