My Everything *Main Lick*

(/) Slide Up  (\) Slide Down  (h) Hammer On  (p) Pull Off  (b) Bend (r) Release (v) Vibrato


E|----------------------------------------------
B|--------------14------------------14----------
G|------15----------15------15----------15------
D|--16------16----------16------16----------16--
A|----------------------------------------------
E|----------------------------------------------



E|--------------18------------------18----------
B|------14----------14------14----------14------
G|--15------15----------15------15----------15--
D|----------------------------------------------
A|----------------------------------------------
E|----------------------------------------------
http://www.guitartabcreator.com
Guitar Tab Creator is intended to store guitar tab created through the tool. It currently does not support in-line text editing. Any text you place in here will be lost. If you need to comment on your tab, please use the "Tab Notes" section located below.