I Surrender All *Solo*

(/) Slide Up  (\) Slide Down  (h) Hammer On  (p) Pull Off  (b) Bend (r) Release (v) Vibrato


E|----------------------------------15v--
B|--1/3v--5/7--5/7/8\7--3--15v--17-------
G|---------------------------------------
D|---------------------------------------
A|---------------------------------------
E|---------------------------------------



E|--17--15--17--15------15------------------------------------------
B|------------------17------17--15--17--15------15------------------
G|------------------------------------------16------16--14--16--14--
D|------------------------------------------------------------------
A|------------------------------------------------------------------
E|------------------------------------------------------------------



E|--17--15--17--15------15--------------------------------------
B|------------------17------17--15--17--15------15--------------
G|------------------------------------------16------16--14\11v--
D|--------------------------------------------------------------
A|--------------------------------------------------------------
E|--------------------------------------------------------------
http://www.guitartabcreator.com
Guitar Tab Creator is intended to store guitar tab created through the tool. It currently does not support in-line text editing. Any text you place in here will be lost. If you need to comment on your tab, please use the "Tab Notes" section located below.