Collisions *Solo*

(/) Slide Up  (\) Slide Down  (h) Hammer On  (p) Pull Off  (b) Bend (r) Release (v) Vibrato


E|-------------------------------------------------------
B|------------------------------12--10--9----------------
G|--6--8--9--8--6\4--4/6-------------------11b11--9--11--
D|-------------------------------------------------------
A|-------------------------------------------------------
E|-------------------------------------------------------



E|--9--11--12--11--9------9----------9--11------11--12/14--14b12------12--14b14--
B|--------------------12-----10--12---------12--------------------14-------------
G|-------------------------------------------------------------------------------
D|-------------------------------------------------------------------------------
A|-------------------------------------------------------------------------------
E|-------------------------------------------------------------------------------



E|----------------------------------------------------
B|--5--4-----5--4--------------5--4-----5--4----------
G|--------6--------6--4h6------------6--------6--4/9--
D|----------------------------------------------------
A|----------------------------------------------------
E|----------------------------------------------------



E|-------------------------------------------------
B|--9--7-----9--7----------9--7-----9--7-----------
G|--------9--------9--8/9--------9--------9--8/13--
D|-------------------------------------------------
A|-------------------------------------------------
E|-------------------------------------------------
http://www.guitartabcreator.com
Guitar Tab Creator is intended to store guitar tab created through the tool. It currently does not support in-line text editing. Any text you place in here will be lost. If you need to comment on your tab, please use the "Tab Notes" section located below.