All it Takes *Solo*

(/) Slide Up  (\) Slide Down  (h) Hammer On  (p) Pull Off  (b) Bend (r) Release (v) Vibrato

E|-------------------------------------7--8--10--8--7------7-----------------------------
B|--10p8--7------------------7--8--10------------------10-----7--10v--/12-----10/12--10--
G|-----------9b9v------7--9------------------------------------------------7-------------
D|---------------------------------------------------------------------------------------
A|---------------------------------------------------------------------------------------
E|---------------------------------------------------------------------------------------



E|----------10--12b12--10--17v------17b17----15p14------14----------------------
B|--10--12----------------------15------------------15------15--14--15--14--12--
G|------------------------------------------------------------------------------
D|------------------------------------------------------------------------------
A|------------------------------------------------------------------------------
E|------------------------------------------------------------------------------



E|--15--14--12--15--14--12--15--14--12--15--14--12------17--15--14--17--15--14--17--15--14--17--15--14--
B|------------------------------------------------------------------------------------------------------
G|------------------------------------------------------------------------------------------------------
D|------------------------------------------------------------------------------------------------------
A|------------------------------------------------------------------------------------------------------
E|------------------------------------------------------------------------------------------------------



E|--19--19--19--19v--14--
B|-------------------17--
G|-----------------------
D|-----------------------
A|-----------------------
E|-----------------------
http://www.guitartabcreator.com
Guitar Tab Creator is intended to store guitar tab created through the tool. It currently does not support in-line text editing. Any text you place in here will be lost. If you need to comment on your tab, please use the "Tab Notes" section located below.