just something little i thought sounded cool and worth keeping - guitar two (main tune)

(/) Slide Up  (\) Slide Down  (h) Hammer On  (p) Pull Off  (b) Bend (r) Release (v) Vibrato


E|-----
B|--5--
G|-----
D|-----
A|-----
E|-----



E|--------------------
B|--5--7--8--7--0-----
G|-----------------2--
D|--------------------
A|--------------------
E|--------------------



E|--------------------------------------------
B|--5--7--8--7--0-----------------------------
G|-----------------2--2--4--5--4--2--0--0-----
D|-----------------------------------------2--
A|--------------------------------------------
E|--------------------------------------------
http://www.guitartabcreator.com
Guitar Tab Creator is intended to store guitar tab created through the tool. It currently does not support in-line text editing. Any text you place in here will be lost. If you need to comment on your tab, please use the "Tab Notes" section located below.