SPLINTERS

(/) Slide Up  (\) Slide Down  (h) Hammer On  (p) Pull Off  (b) Bend (r) Release (v) Vibrato
E|------------------------------------------------------------------------------
B|------------------------------------------------------------------------------
G|------------------------------------------------------------------------------
D|------------------------------------------------------------------------------
A|--7--10--7--7--10--7--3--5--3--3--5--7--10--7--7--10--7--10--12--10--5--7--5--
E|--7---------7---------3--------3-----7---------7---------10----------5--------



E|---------|----------|--------|-----------
B|---------|----------|--------|-----------
G|---------|----------|--------|-----------
D|--7--10--|--10--12--|--5--7--|--3--5-----
A|--7------|--10------|--5-----|--3--------
E|--7------|--10------|--5-----|--3--------



E|---------|----------|--------|---------|----------|--------|-----------
B|---------|----------|--------|---------|----------|--------|-----------
G|---------|----------|--3--5--|---------|----------|--5--7--|--3--5-----
D|--7--10--|--10--12--|--3-----|--7--10--|--10--12--|--5-----|--3--------
A|--7------|--10------|--3-----|--7------|--10------|--5-----|--3--------
E|--7------|--10------|--3-----|--7------|--10------|--5-----|--3--------



E|------|------|-----|-----
B|------|------|-----|-----
G|------|------|-----|-----
D|------|------|-----|-----
A|--10--|--12--|--7--|--5--
E|--7---|--10--|--5--|--3--


E|---------|----------|--------|---------|----------|--------|-----------
B|---------|----------|--------|---------|----------|--------|-----------
G|---------|----------|--3--5--|---------|----------|--5--7--|--3--5-----
D|--7--10--|--10--12--|--3-----|--7--10--|--10--12--|--5-----|--3--------
A|--7------|--10------|--3-----|--7------|--10------|--5-----|--3--------
E|--7------|--10------|--3-----|--7------|--10------|--5-----|--3--------


E|------|------|-----|-----
B|------|------|-----|-----
G|------|------|-----|-----
D|------|------|-----|-----
A|--10--|--12--|--7--|--5--
E|--7---|--10--|--5--|--3--


E|---------|----------|--------|---------|----------|--------|-----------
B|---------|----------|--------|---------|----------|--------|-----------
G|---------|----------|--3--5--|---------|----------|--5--7--|--3--5-----
D|--7--10--|--10--12--|--3-----|--7--10--|--10--12--|--5-----|--3--------
A|--7------|--10------|--3-----|--7------|--10------|--5-----|--3--------
E|--7------|--10------|--3-----|--7------|--10------|--5-----|--3--------



E|------------|-------------|-----------|-----------
B|------------|-------------|-----------|-----------
G|------------|-------------|-----------|-----------
D|------------|-------------|-----------|-----------
A|-----10--0--|------12--0--|-----7--0--|-----5--0--
E|--7---------|--10---------|--5--------|--3--------



E|-----|-----|-----|-----|-----|-----
B|-----|-----|-----|-----|-----|-----
G|--9--|--9--|--7--|--9--|--7--|--5--
D|--7--|--0--|--0--|--0--|--0--|--3--
A|--7--|--0--|--0--|--0--|--0--|--3--
E|--7--|--0--|--0--|--0--|--0--|--3--
http://www.guitartabcreator.com
Guitar Tab Creator is intended to store guitar tab created through the tool. It currently does not support in-line text editing. Any text you place in here will be lost. If you need to comment on your tab, please use the "Tab Notes" section located below.