BRIGHTS

(/) Slide Up  (\) Slide Down  (h) Hammer On  (p) Pull Off  (b) Bend (r) Release (v) Vibrato
E|---------------------------------p0--|--------------------------------4--|-----
B|-----------------------------6--6----|-----------------------------7-----|-----
G|-------------------------------------|-----------------------------------|-----
D|-----6-----6--6-----6-----6----------|-----6-----6--6-----6-----6--------|-----
A|--4-----4--------0-----0-------------|--4-----4--------0-----0-----------|-----
E|-------------------------------------|-----------------------------------|-----



E|-------------------------------------|--------------------------------4-----4-----4-----4-----
B|-----------------------------6--6p0--|-----------------------------7-----7-----7-----7--------
G|-------------------------------------|--------------------------------------------------------
D|-----6-----6--6-----6-----6----------|-----6-----6--6-----6-----6-----------------------------
A|--4-----4--------0-----0-------------|--4-----4--------0-----0--------------------------------
E|-------------------------------------|--------------------------------------------------------



E|--0--|--0--|--0--|--0--|-----------
B|--0--|--0--|--0--|--0--|-----------
G|--4--|--4--|--0--|--0--|-----------
D|--6--|--4--|--2--|--4--|-----------
A|--4--|--6--|--2--|--2--|-----------
E|--4--|--4--|--0--|--2--|-----------



E|--0--|--0--|--4--|--0--|--0--|--7--
B|--0--|--5--|--5--|--0--|--5--|--5--
G|-----|-----|-----|-----|-----|-----
D|--6--|--6--|--6--|--6--|--6--|--6--
A|--4--|--0--|--0--|--4--|--0--|--0--
E|--0--|--0--|--0--|--0--|--0--|--0--



E|--0--|--0--|--0--|--0--
B|--0--|--0--|--0--|--0--
G|--4--|--4--|--0--|--0--
D|--6--|--4--|--2--|--4--
A|--4--|--6--|--2--|--2--
E|--4--|--4--|--0--|--2--



E|--0--|--0--|--4--|--0--|--0--|--7--
B|--0--|--5--|--5--|--0--|--5--|--5--
G|-----|-----|-----|-----|-----|-----
D|--6--|--6--|--6--|--6--|--6--|--6--
A|--4--|--0--|--0--|--4--|--0--|--0--
E|--0--|--0--|--0--|--0--|--0--|--0--















E|--0--|--0--|--0--|--0--
B|--0--|--0--|--0--|--0--
G|--4--|--4--|--0--|--0--
D|--6--|--4--|--2--|--4--
A|--4--|--6--|--2--|--2--
E|--4--|--4--|--0--|--2--



E|--4--|--0--|--0--|--0---|-----
B|--4--|--0--|--0--|--0---|-----
G|--4--|-----|-----|------|-----
D|--6--|--6--|--9--|--11--|-----
A|--4--|--0--|--0--|--0---|-----
E|--4--|--0--|--0--|--0---|-----
http://www.guitartabcreator.com
Guitar Tab Creator is intended to store guitar tab created through the tool. It currently does not support in-line text editing. Any text you place in here will be lost. If you need to comment on your tab, please use the "Tab Notes" section located below.