title 7

(/) Slide Up  (\) Slide Down  (h) Hammer On  (p) Pull Off  (b) Bend (r) Release (v) Vibrato


E|-----------5--5-----------------8--8--------
B|--------5-----5--------------6--6--6--------
G|--5--5-----------5--5--8--8-----------8--8--
D|--5--5-----------5--5--8--8-----------8--8--
A|--3--3-----------3--3--6--6-----------6--6--
E|--3--3-----------3--3--6--6-----------6--6--



E|------------------------------------
B|------------------------------------
G|------------------------------------
D|------------------------------------
A|--5--5--5--3--3--8--8--8--6--5--12--
E|--3--3--3--3--3--6--6--6--6--5--10--
http://www.guitartabcreator.com
Guitar Tab Creator is intended to store guitar tab created through the tool. It currently does not support in-line text editing. Any text you place in here will be lost. If you need to comment on your tab, please use the "Tab Notes" section located below.