title 6

(/) Slide Up  (\) Slide Down  (h) Hammer On  (p) Pull Off  (b) Bend (r) Release (v) Vibrato


E|--------------------------------------------------------------------------------
B|--------------3--------------------------3--------------------7-----------------
G|-----------4-----4--------------------4-----4--------------7-----7-----------5--
D|--------4-----------4--------------4--------------------7-----------7-----------
A|-----2-----------------0--------2--------------0-----5-----------------5--------
E|--2-----------------------2--0--------------------5-----------------------3-----



E|------10------10------9------9------12------12------9------9--
B|--10------10------10-----10-----10------10------10-----10-----
G|--------------------------------------------------------------
D|--------------------------------------------------------------
A|--------------------------------------------------------------
E|--------------------------------------------------------------
http://www.guitartabcreator.com
Guitar Tab Creator is intended to store guitar tab created through the tool. It currently does not support in-line text editing. Any text you place in here will be lost. If you need to comment on your tab, please use the "Tab Notes" section located below.