Title #3

(/) Slide Up  (\) Slide Down  (h) Hammer On  (p) Pull Off  (b) Bend (r) Release (v) Vibrato


E|--------------0-----------------------------------------------------------------------------
B|-----------1-----1-----------------------5-----------------------5-----------------------5--
G|--------0-----------0-----------------5-----5-----------------5-----5-----------------5-----
D|-----2-----------------2-----------3-----------3-----------0-----------0-----------5--------
A|--3-----------------------3-----3-----------------3-----0-----------------0-----5-----------
E|-----------------------------3-----------------------0-----------------------5--------------



E|-----------------------------------
B|-----------------------5-----------
G|--5-----------------5-----5--------
D|-----5-----------7-----------7-----
A|--------5-----7-----------------7--
E|-----------7-----------------------
http://www.guitartabcreator.com
Guitar Tab Creator is intended to store guitar tab created through the tool. It currently does not support in-line text editing. Any text you place in here will be lost. If you need to comment on your tab, please use the "Tab Notes" section located below.