song 2

(/) Slide Up  (\) Slide Down  (h) Hammer On  (p) Pull Off  (b) Bend (r) Release (v) Vibrato


E|-----------------------------------------------
B|-----------------------------------------------
G|-----------------------------------------------
D|-----------------------------------------------
A|-----------------------------------1--3--1--3--
E|--1--0--0--1--0--0--1--0--0--1--3--------------



E|-----------------------------------
B|-----------------------------------
G|-----------------------------------
D|-----------------------------------
A|--1--0--3-----0--6--0--3-----0--5--
E|--1--0--3--0--0--6--0--3--0--0--5--



E|--------------------------------------------
B|--------------------------------------------
G|--------------------------------------------
D|----------12------------12-----------12-----
A|------10------10-----8------8-----7------7--
E|--10--------------8------------7------------



E|--------------------------
B|--------------------------
G|--------------------------
D|--------------------------
A|--0--0--0--3--0--5--8--7--
E|--0--0--0--3--0--5--8--7--
http://www.guitartabcreator.com
Guitar Tab Creator is intended to store guitar tab created through the tool. It currently does not support in-line text editing. Any text you place in here will be lost. If you need to comment on your tab, please use the "Tab Notes" section located below.