Song #1

(/) Slide Up  (\) Slide Down  (h) Hammer On  (p) Pull Off  (b) Bend (r) Release (v) Vibrato

BOTH GUITARS
E|-----------------------------------
B|-----------------------------------
G|-----------------------------------
D|-----------------------------------
A|--12--15--10--12--8--10--8--10--7--
E|-----------------------------------



E|------------------------------------------------------------------
B|------------------------------------------------------------------
G|------------------------------------------------------------------
D|------------------------------------------------------------------
A|--8--10--8--10--8--10-----8--7--10--7--10--7--10--10--12--10--12--
E|--8--8---8--8---8--8---8-----7--7---7--7---7--7---10--10--10--10--

Guitar 2 plays during solo

E|-------------------------------------------------
B|-------------------------------------------------
G|-------------------------------------------------
D|-------------------------------------------------
A|--12--12--12--12--10--10--10--10--9--9--9--9--5--
E|--10--10--10--10--8---8---8---8---7--7--7--7--5--

SOLO Guitar #1

E|----------------------------------------------------------------------
B|------------------20--------------------------------------------------
G|------17--19--17------19--17------------------------------------------
D|--19--------------------------19--17----------15--17--15--14--15--12--
A|--------------------------------------15--17--------------------------
E|----------------------------------------------------------------------






E|--------------------------------------------------
B|--------------------------------------------------
G|----------------------------------17--19--17------
D|--12--14--15--17----------17--19--------------19--
A|------------------17--19--------------------------
E|--------------------------------------------------



E|------------------------------------------------------
B|------------------------------------------------------
G|------------------15--------------------------12------
D|----------15--17------17--15----------12--15------15--
A|--15--17----------------------12--15------------------
E|------------------------------------------------------



E|--
B|--
G|--
D|--
A|--
E|--
http://www.guitartabcreator.com
Guitar Tab Creator is intended to store guitar tab created through the tool. It currently does not support in-line text editing. Any text you place in here will be lost. If you need to comment on your tab, please use the "Tab Notes" section located below.