kornish

(/) Slide Up  (\) Slide Down  (h) Hammer On  (p) Pull Off  (b) Bend (r) Release (v) Vibrato


E|--21--20--
B|----------
G|--20--20--
D|--20--21--
A|--19--19--
E|--19--19--



E|-----
B|-----
G|-----
D|-----
A|-----
E|--0--



E|-----
B|-----
G|-----
D|-----
A|-----
E|--3--



E|-----------------------------
B|-----------------------------
G|-----------------------------
D|-----------------------------
A|-----------------------------
E|--0--5--3--0--1--0--1--2--0--
http://www.guitartabcreator.com
Guitar Tab Creator is intended to store guitar tab created through the tool. It currently does not support in-line text editing. Any text you place in here will be lost. If you need to comment on your tab, please use the "Tab Notes" section located below.