July 9 Tab

(/) Slide Up  (\) Slide Down  (h) Hammer On  (p) Pull Off  (b) Bend (r) Release (v) Vibrato


E|--------------7-----------------------7--------------5--------7--------------------7--------
B|-----------------5-----5--------5--------5--------------5--------5-----------5--------5-----
G|--------0-----------0--------0-----0--------0-----0--------0--------0-----0-----0--------0--
D|-----4-----4--------------7-----------------------------------------------------------------
A|--0--------------------------------------------7-----------------------5--------------------
E|--------------------------------------------------------------------------------------------



E|--------2--0--------2--0-----------------------------
B|--------------------------------------------1--3--0--
G|--------------------------------6--7-----------------
D|--2--2--------5--5--------7--7--------3--3-----------
A|--2--2--------5--5--------7--7--------3--3-----------
E|--0--0--------3--3--------5--5--------1--1-----------
http://www.guitartabcreator.com
Guitar Tab Creator is intended to store guitar tab created through the tool. It currently does not support in-line text editing. Any text you place in here will be lost. If you need to comment on your tab, please use the "Tab Notes" section located below.